Daniel Catalaa



Sáname


(Music and lyrics by Daniel Catalaa, 2006)

Options

Guitar chords

G*      320033
Cadd9   032033
Dsus/F# 200233

C       032010
C/B     020010
Am      002210

D       x00232
Dsus    x00233
D9      x00230

Bm      224434
D/F#    254232
Bm/G    224532

Am+7    002110
Dm/F    003230
A7sus4  002030

Song lyrics with chords

G* G* Cadd9 Cadd9 Dsus/F# Dsus/F# G* G*


G*     G*   Cadd9 Cadd9

Sanameeeeee

         
Dsus/F#   G*     G*
como lo hacía mi  madre

     C   C/B      Am
El dolor de una herida

       D Dsus  D  D9  D
con un soplo y un beso

      Dsus D      G*  G*         Cadd9 Cadd9
se me iba en seguidaaaaa-aaa-aaa-aaa


G* G*

G*      G*           Cadd9 Cadd9

Quieremeeeee-eee-eee-eeeeeeeeeee

Dsus/F# Dsus/F#  G*     G*
como me quizo mi padreeee

     C  C/B           Am
que siempre estuvo en casa

    C   C/B          Am
a pesar de la dificultad

    D  Dsus  D    D9     [suspend]
que nunca    tuvo miedo

[suspend]        G*    G*
de decirme la verdad


  G*      G*         Cadd9 Cadd9 
Amparameeeee-eee-eee-eeeeeeeeeee

Dsus/F# Dsus/F#      G* G*
como lo hacen mis hermanos

C C/B      Am
Ellos me dijeron:

C  C/B      Am
En el extranjero

D  Dsus  D    D9
no le eches raíz

[susp.]
Somos tu sangre,

           G*    G*
tu único país


Cadd9 Cadd9 Dsus/F# Dsus/F#

Bm   D/F#  Bm/G   


            Em      B7    B7
Y cuando la vida me pida

B7            B7             G*    G*
más de lo que pueda llegar a dar

        G*      Cadd9    Cadd9   Am
y me falten las fuerzas

               Am      Am+7
para seguir creyendo

       Am+7          Dm/F
que al final del camino

            A7sus4
estaré satisfecho

             D    D  D  D          
G*     G*  
con el recoridooo-oh-oh-oooooooh    Sanameeeeee...

[Repeat once from top]

Guitar TAB notation

Instrumental Intro



G*               G
*               Cadd9            Cadd9
+   +   +   +    +   +   +   +    +   +   +   +    +   +   +   +   
3---------------|3---------------|----------------|----------------| 
----------------|----------------|2---------------|2---------------|  
----------------|----------------|----------------|----------------|
----0-0---0-0-0-|----0-0---0-0-0-|----0-0---0-0-0-|----0-0---0-0-0-|
----3-3---3-3-3-|----3-3---3-3-3-|----3-3---3-3-3-|----3-3---3-3-3-|  
----3-3---3-3-3-|----3-3---3-3-3-|----3-3---3-3-3-|----3-3---3-3-3-|
d   u u   u d u  d   u u   u d u  d   u u   u d u  d   u u   u d u
                   
                            
Dsus/F#          Dsus/F#         G*               G*              
+   +   +   +    +   +   +   +    +   +   +   +    +   +   +   +   
2---------------|2---------------|----------------|----------------| 
----------------|----------------|----------------|----------------|  
----------------|----------------|----------------|----------------|
--2-2---2-2-2---|--2-2---2-2-2---|----------------|----------------|
--3-3---3-3-3---|--3-3---3-3-3---|----------------|----------------|  
--3-3---3-3-3---|--3-3---3-3-2---|----------------|----------------|
d d u   u d u    d d u d  u d u  |                                  
                                 |-->repeat from top