Daniel Catalaa



100 Yards


(Music and lyrics by Daniel Catalaa, 2001)

Options

Guitar chords

G*        320033
Cadd9     032033
B7        021202
B7*       021200
Em        022000
XX        200233
Bm        224432
Bm*       254232
A*        002200

Song lyrics with chords

[CAPO ON 3RD FRET]

INTRO:

G*   Cadd9  G*   Cadd9  G*   Cadd9 

G*                 Cadd9
Cry and don't know why
 G*                        Cadd9
Another day like that goes by
C                   RIFF 1 [C <=> Am]
Why did He conceive
     B7       B7*      E7
of a world in which we love
    C           G*    Cadd9
and then we leave?

G*             Cadd9
Happiness is chronically
XX                    G*
100 yards in front of me

     C           RIFF 1 [C <=> Am]
Well here I am,
     Bm7
I am wanting,
     Em
I am pleading,
     C -->  C(3rd)   G*   Cadd9
I'm believing that I can...


[USE PERCUSSIVE STRUM]
   G*              Cadd9   G*             Cadd9
...I can no longer hide 
             G*              Cadd9
behind the belief
     G* Cadd9    G*             Cadd9
that you
                   G*      Cadd9     
are different from me

[RESUME NORMAL STRUMMING]

       C              RIFF 2
'cause when I look up
          Bm   
what do I see?
Bm*              D        
branches lost in heaven
A*      Em              G*      Cadd9
leading back to the same tree

G*     Cadd9    G*     Cadd9

[PERCUSSIVE STRUMMING]
                 G*      Cadd9   G*    Cadd9
and when I fall asleep
    G*                 Cadd9
and start to fly in my dreams

[RESUME NORMAL STRUMMING]

      C                    RIFF 1
I see rivers running back
                Bm
Is that you and me
Bm*               D
running back like brothers
A*     Em            G*       Cadd9
to our mother in the sea

Guitar TAB notation

Strumming Pattern

  C C C   C C C    C C     C
        Am       Am    Am
+   +   +   +    +   +   +   +    +   +   +   +    +   +   +   +
----------------|----------------|----------------|----------------|
--------0-------|0-----0---------|----------------|----------------|
--2-2-2-2-2-2-2-|2-2-2-2---2-----|----------------|----------------|
--0-0-0-2-0-0-0-|2-0-0-2---2-----|----------------|----------------|
--1-1-1-1-1-1-1-|1-1-1-1---1-----|----------------|----------------|
--0-0-0-0-0-0-0-|0-0-0-0---0-----|----------------|----------------|
  u d u d u d u  d u d u   u
Riff1

[Use strumming]

  C C C   C C C    C C     C
        Am       Am    Am
+   +   +   +    +   +   +   +    +   +   +   +    +   +   +   +
----------------|----------------|----------------|----------------|
--------0-------|0-----0---------|----------------|----------------|
--2-2-2-2-2-2-2-|2-2-2-2---2-----|----------------|----------------|
--0-0-0-2-0-0-0-|2-0-0-2---2-----|----------------|----------------|
--1-1-1-1-1-1-1-|1-1-1-1---1-----|----------------|----------------|
--0-0-0-0-0-0-0-|0-0-0-0---0-----|----------------|----------------|
  u d u d u d u  d u d u   u


Riff2 ???   C C C   C C C    C C     C
        Am       Am    Am
+   +   +   +    +   +   +   +    +   +   +   +    +   +   +   +
----------------|----------------|----------------|----------------|
--------0-------|0-----0---------|----------------|----------------|
--2-2-2-2-2-2-2-|2-2-2-2---2-----|----------------|----------------|
--0-0-0-2-0-0-0-|2-0-0-2---2-----|----------------|----------------|
--1-1-1-1-1-1-1-|1-1-1-1---1-----|----------------|----------------|
--0-0-0-0-0-0-0-|0-0-0-0---0-----|----------------|----------------|
  u d u d u d u  d u d u   u