Daniel Catalaa



Encapsulated


(Music and lyrics by Daniel Catalaa, 2003)

Options

Guitar chords

D        000232
Dsus     000233
A        002220
A(add9)  002200
D<->Dsus    alternate
A<->A(add9) alternate
G        320003
F#*      000002
B7       021202
Em       022000
Em9      024000
Bm       224432
A(+m9)   002320
G(3rd)   355433  
Gm       355333

Song lyrics with chords

[PLAY THE INSTRUMENTAL INTRO, PART 1+2+3]


           D<–>Dsus               A<->A(add9)
I cannot believe what I will give up
   G             F#*        D
to live a little longer the same
      B7
Don't mean to take from my life
    Em
But what's the point of making it
     Em9      D<->Dsus
if I make it alone?

       D<->Dsus
All my hopes encapsulated
                                    A<->A(add9)
in this tiny bottle that I throw to sea
                              Em
No one is standing where I am waiting
                      Bm            D<->Dsus
to see what the waves bring back to me

        D<->Dsus
All the people I once knew
               A<->A(add9)
live beyond my reach
                           Em            
What's the point of being alone
            Bm                  D<->Dsus
if you have no one to be lonely with?


  A(+m9)                     Bm
I circle the island one more time
     G(3rd)
I am fighting for air
               Gm                     D
in an ocean of people that just don't care

             B7                      Em
What is it inside me that makes me believe
     G                                  D
that people around me don't feel what I feel?

A(+m9)                      Bm
Maybe money is something to love 
    G(3rd)             Gm           D
and shows of affection something to steal

             B7                      Em
What is it inside me that makes me believe
     G                                 D
that keeping my distance is all that I need?

B7                                Em
Why would it bother when people insist
    G                      D<->D
and I cannot answer why I exist?


[REPEAT ONCE FROM TOP INCLUDING THE INSTRUMENTAL INTRO]


Guitar TAB notation

INSTRUMENTAL INTRO

PART 1 (listen to mp3)


<------strum in a pulsating way -----------------------------------
+   +   +   +    +   +   +   +    +   +   +   +    +   +   +   +   
----------------|----------------|----------------|----------------|
----------------|----------------|----------------|----------------|
----------------|----------------|----------------|----------------|
7---7---7-7-7-7-|--7-7-7-7---7---|7-7-7-7---7-7-7-|7---7---7-7-7-7-|
7---7---7-7-7-7-|--7-7-7-8---8---|8-8-8-8---8-8-8-|7---7---7-7-7-7-|
8---8---8-8-8-8-|--8-8-8-7---7---|7-7-7-7---7-7-7-|8---8---8-8-8-8-|
d   d   d u d u    u d u d   d    d u d u   u d u  d   d   d u d u 


---------------------->
+   +   +   +    +   +   +   +    +   +   +   +    +   +   +   +
----------------|----------------|----------------|----------------|
----------------|----------------|----------------|----------------|
----------------|----------------|----------------|----------------|
--7-7-7-7---7---|7-7-7-7---7-7-7-|7-7-7-7-7-7---7-|--7-7-7---7-7-7-|
--7-7-7-8---8---|8-8-8-8---7-7-7-|7-7-8-8-8-7---7-|--8-8-8---7-7-7-|
--8-8-8-7---7---|7-7-7-7--101010-|8-7-7-7-710---8-|--7-7-7--101010-|
  u d u d   d    d u d u   u d u  d u d u d u d u  d u d u d u d u


+   +   +   +    +   +   +   +    +   +   +   +    +   +   +   +
----------------|----------------|----------------|----------------|
----------------|----------------|----------------|----------------|
----------------|----------------|----------------|----------------|
7-7-7-7-7-7---7-|--7---7-7-7-7-7-|7-7-7-7-7-7-7-7-|7-7---7---7-7-7-|
7-7-8-8-8-7---7-|--8---7-7-7-7-7-|7-7-7-7-7-7-7-7-|7-7---7---7-7-7-|
8-7-7-7-710---8-|--7---7-7-810-8-|7-810-8-7-81010-|810--10--101010-|
d u d u d u   u    u   u d u d u  d u d u d u d u  d u   u   u d u


Play the piece above twice (x2) then proceed below


PART 2 (listen to mp3)

+   +   +   +    +   +   +   +    +   +   +   +    +   +   +   +      
----------------|----------------|----------------|----------------|
----------------|----------------|----------------|----------------|
----------------|----------------|----------------|----------------|
5---5-5-5-0-0-3-|--3---3-3-3-5---|5-5-5-0-0-3---3-|--3-3-3---------|
5---5-5-5-0-0-5-|--5---5-5-5-5---|5-5-5-0-0-5---5-|--5-5-5---------|
7---7-7-7-0-0-0-|--0---0-0-0-7---|7-7-7-0-0-0---0-|--0-0-0---------|
d   d u d u d u    u   u d u d    d u d u d u   u    u   u   


+   +   +   +    +   +   +   +    +   +   +   +    +   +  +   +      
----------------|----------------|----------------|----------------|
----------------|----------------|----------------|----------------|
----------------|----------------|----------------|----------------|
5---5-5-5-0-0-3-|--3---3-3-3-5---|5-5-5-0-0-3---3-|--3-3-3---3-3-3-|
5---5-5-5-0-0-5-|--5---5-5-5-5---|5-5-5-0-0-5---5-|--5-5-5---2-2-3-|
7---7-7-7-0-0-0-|--0---0-0-0-7---|7-7-7-0-0-0---0-|--0-0-0---3-2-3-|
d   d u d u d u    u   u d u d    d u d u d u   u    u d u   u d u




PART 3 (listen to mp3) Part below is more strummed than pulsating

+   +   +  +    +   +   +   +    +   +   +   +    +   +   +   +      
----------------|----------------|----------------|----------------|
----------------|----------------|----------------|----------------|
----------------|--------------2-|2-2-2-2-2-2-2-2-|2-2-2-2-2-2-----|
3-3-3-3-3-3-3-3-|3-3-3-3---3---2-|2-2-2-2-2-2-2-2-|2-2-2-2-2-2---0-|
2-2-2-2-2-2-2-2-|2-2-2-2---2---0-|0-0-2-0-0-0-2-0-|0-0-2-0-0-2---0-|
4-3-3-3-4-3-3-3-|4-3-3-4---3---0-|0-0-0-0-0-0-2-0-|0-0-2-0-2-2---3-|
d u d u d u d u  d u d u   u   u  d u d u d u d u  d u d u d u   u 


+   +   +   +    +   +   +   +    +   +   +   +    +   +   +   +      
----------------|----------------|----------------|----------------|
----------------|----------------|----------------|----------------|
----------------|----------------|----------------|----------------|
0-0-0-0-3-3---0-|0-0---3-3-3---3-|3-3-3-etc-------|----------------|
0-0-0-0-2-2---0-|0-0---2-2-2---2-|2-2-2-etc-------|----------------|
3-3-2-0-3-3---3-|3-3---3-3-3---3-|3-3-4-etc-------|----------------|
d u d u d u   u  d u   u   u   u  d u d


Parts 1+2+3 (listen to mp3)