Daniel Catalaa



Come closer


(Music and lyrics by Daniel Catalaa, 2002)

Options

Guitar chords

G         320003
G*        320303
Am        002210
C         030210
D*        054030

Song lyrics with chords

Song structure:
-- CHORUS
-- VERSE 1
-- CHORUS
-- VERSE 2
-- CHORUS(only 2nd half)


CHORUS

G* G    G* G    G     G* G     G* G 

N.C.
Stay longer, stay longer, stay longer

G* G    G* G    G     G* G     G* G 

N.C.                       Am Am Am
I know you must be leaving
N.C.                    C  C  C
But I'm still believing
N.C.
You'll stay a little longer
N.C.
when you hear me say

G* G    G* G    G     G* G     G* G

N.C.
Come closer, come closer, come closer,

G* G    G* G    G     G* G     G* G

N.C.                         Am Am Am
I know you can't come closer
N.C.                      C  C  C
but I will always ask you
N.C.
to come a little closer
N.C.
the closer you are

G* G    G* G    G     G* G     G* G


VERSE 1

         Am                    C
Like the tree that became this guitar
         D*                G
You were meant to be in my arms
         Am                  C
Like the second pillow on my bed
  D*                               G
I kiss you just for practice in my head

(Stay...longer)


VERSE 2

        Am         C
It's so nice to surrender and let you win
D*                                    G
Tell me about the places where you've been
  Am                                  C
I know there are serious things going on
    D*                  (pause)
But when you talk to me
N.C.
I smile like an idiot all day long

Guitar TAB notation

Instrumental introduction (listen to mp3)

G        G* G      G* G                   G* G       G* G
+   +   +   +    +   +   +   +     +   +   +   +    +   +   +   +
3---------3-3-3-|----3-3---------|3---------3-3-3-|----3-3---------|
----------------|----------------|----------------|----------------|
----------------|----------------|----------------|----------------|
--0-------3-0---|0---3-0---------|--0-------3-0---|0---3-0---------|
----0---0-0-0---|--0-0-0---------|----0---0-0-0---|--0-0-0---------|
------3---3-3---|----3-3---------|------3---3-3---|----3-3---------|



Riff1 (listen to mp3) 

G*  G    G* G          G        G* G       G* G
+   +   +   +    +   +   +   +    +   +   +   +
3---3-----3-3---|3---------3-3-3-|----3-----------|
----------------|----------------|----------------|
----------------|----------------|----------------|
3-3---0---3-0---|--0-------3-0---|0---3-----------|
0-0-----0-0-0---|----0---0-0-0---|--0-0-----------|
3-3-------3-3---|------3---3-3---|----3-----------|



Play the chords below in between lyrics where indicated by plucking the strings at the same time which will create a pulsating sound

Am  Am Am                  C C C
+   +   +   +              +   +   +   +
----------------|          ----------------|
0-0-0-----------|          3-3-3-----------|
----------------|          ----------------|
2-2-2-----------|          0-0-0-----------|
1-1-1-----------|          1-1-1-----------|
0-0-0-----------|          0-0-0-----------|